Transatlantique


Transposer


             /!\ Gsus4/B = x20010 (if anybody know this chord, please tell me in the comment section)

[Intro]
                 Am            Gsus4/B          C          
e|---8--7--5--3--0------------------------------------------------------|
B|---------------------1------------1--------------1------------1-------|
G|-----------------------2------------0--------------0------------0-----|
D|----------------2-2------2----0-0-----0----0h2-2-----2----2-2-----2---|
A|---------------0-0---------0-2-2--------2-3---3--------3-3-3--------3-|
E|----------------------------------------------------------------------|

[Chorus]
   Am             Gsus4/B          C
e|---------------------------------------------------------|
B|--------1------------1--------------1------------1-------|
G|----------2------------0--------------0------------0-----|
D|---0-0------2----0-0-----0----0h2-2-----2----2-2-----2---|
A|--0-0---------0-2-2--------2-3---3--------3-3-3--------3-|
E|---------------------------------------------------------|


Am
Le miroir éclate
Gsus4/B 
Dans la jungle écarlate
C
Parcours sur l'océan
C
On nage dans le néant 
      Am
Qui engloutit les gens
Gsus4/B
Le temps, les amants 
   C
La fumée qui sort de ta peau
C                          Am
Embrase les arbres et l'eau 
    Gsus4/B                      C
Le Napalm les riz jonchés d'or
      C                         Am 
Le soleil en pagaille sur ton corps
      Gsus4/B                       C
Je te vois pour que tu ries encore 

      Am       Gsus4/B 
Au Brésil, un idylle
       C                          G
Rien qu'un jour avec toi sur une ile plus paisible 
      Am        Gsus4/B
Au Brésil, un idylle 
       C                          G
Rien qu'un jour avec toi sur une ile plus paisible 
      Am   Gsus4/B   C   G
Au Brésil 

     Am                  Gsus4/B                     C
Le froid s'élève d'une atmosphère humide et sans air 
                            C
La pluie arrive et nettoie tout sur son passage 


Am                 
Plus besoin de le dire
Gsus4/B
Juste besoin de courir 
C
Plus besoin de l'écrire 
C
Juste besoin de sentir 

      Am       Gsus4/B 
Au Brésil, un idylle
       C                          G
Rien qu'un jour avec toi sur une ile plus paisible 
      Am        Gsus4/B
Au Brésil, un idylle 
       C                          G
Rien qu'un jour avec toi sur une ile plus paisible 
      Am   Gsus4/B   C   G
Au Brésil
      Am   Gsus4/B   C   G
Au Brésil


Viens voir là bas, regarde moi 

Viens voir là bas, regarde moi 


Au Brésil 

Une idylle 

Au Brésil 

Une idylle



************************************

| h  Hammer-on

************************************
            

* All the chords provided on here are the property of the respective artist, authors and labels, they are intended strictly for educational purposes,read,view and private study. All the contents are extracted from the internet and we are not getting any responsibility for the content.