Unglued


Transposer


             -----------------------------------------------------------------------------
                             UNGLUED - Fair
-----------------------------------------------------------------------------
Love this song! I've just started listening to this band today, and i havent spent 
like.. more than an hour not listening to them. anyways. this is my first real 
attempt at chording a song by ear. I saw there's another version up, however it is 
completely wrong. so. here goes. :P



Tabbed by: John Bentley
Email: [email protected]

Tuning: Standard

Chords used:

A#m:        C#:       F#:      G#:
e|--x      e|--x     e|--x    e|--x
B|--x      B|--x     B|--x    B|--x
G|--3      G|--6     G|--x    G|--x
D|--3      D|--6     D|--4    D|--6
A|--1      A|--4     A|--4    A|--6
E|--x      E|--x     E|--2    E|--4


Intro:
A# C# x2
F# G# x2


A#                                  C#                      A#
This is the first thing I can remember I came unglued X2
F#                                            G#                   F#
Last on board when the ship went down when the ship went down X2
[This section plays through twice]^^^



C#                     C#/C                 
Speak to me now till I dont feel a thing
      G#                   F#
Until winter gives way to spring X2


F# G#



A#m                                  C#                      A#m
This is the first thing I can remember I came unglued X2
F#                                            G#                   F#
Last on board when the ship went down when the ship went down X2
[Again, twice ^^^]


C#                     C#/C
Speak to me now till I dont feel a thing
      G#                   F#
Until winter gives way to spring X2



then there is this little solo thingy...

e|-------------------------------------------------------------------------|
B|-------------------------------------------------------------------------|
G|-----6-----6---6/8-6------6---6-----6/8-8/10-8-6----------------10--6----|
D|---6-----6----6----------6---6----6-------------------4---4--------------|
A|-4-----4-----4--------------------------------------4----4---4-----------|
E|-----------------------4---4----4-----------------2-----2---2------------|

e|-------------------------------------------------------------------------|
B|-------------------------------------------------------------------------|
G|-------------------------------------------------------------------------|
D|------6-----6----6/8-8/10-8-6--------------------------------------------|
A|----6-----6-----6--------------------------------------------------------|
E|--4-----4-----4----------------------------------------------------------|



C#                        C#/C
You are the one that I lost
                                   G#
Ive been taking all the back roads home
                                             F#
When everything thats held me back now becomes whats making me come undone
C#                             C#/C                             
On the ceiling is a secret door 
                                   G#    
and Ive finally found the words to prove
                                              F#
When everything was tragic at once it made me come unglued


Email me if it needs some fixinz. kthanks.
            

* All the chords provided on here are the property of the respective artist, authors and labels, they are intended strictly for educational purposes,read,view and private study. All the contents are extracted from the internet and we are not getting any responsibility for the content.