Vuele Bajo


Transposer


             G D A7 D 
    Dsus     D             Dsus     D
e|----3-----2-----2-----|----3-----2-----2-----|
B|------3-----3-----3---|------3-----3-----3---|
G|--------2-----2-----2-|--------2-----2-----2-|
D|-0--------------------|-0--------------------|
A|----------------------|----------------------|
E|----------------------|----------------------|

  D       D7
No crezca mi niño,
     G
No crezca jamás,
      D        Em
Los grandes al mundo,
      A7        Dsus
Le hacen mucho mal.

    Dsus     D
e|----3-----2-----2-----|
B|------3-----3-----3---|
G|--------2-----2-----2-|
D|-0--------------------|
A|----------------------|
E|----------------------|

    D           D7
El hombre ambiciona,
   G
Cada día más,
    D         Em
Y pierde el camino,
     A7       D
Por querer volar.

  D    D7
Vuele bajo,
 G              D
Porque abajo,
   A7       D
Está la verdad.

    A7
e|----0--0--|
B|----2--2--|
G|----0--0--|
D|----------|
A|-0--------|
E|----------|

D       D7
Esto es algo,
 G               D
Que los hombres,
      A7       Dsus
No aprenden jamás

e|----3-----2-----2-----|----3-----2-----2-----|
B|------3-----3-----3---|------3-----3-----3---|
G|--------2-----2-----2-|--------2-----2-----2-|
D|-0--------------------|-0--------------------|
A|----------------------|----------------------|
E|----------------------|----------------------|

    G       D       A7      D
e|----3--|----2--|----0--|----2--2--2--|
B|----0--|----3--|----2--|----3--3--3--|
G|----0--|----2--|----0--|----2--2--2--|
D|-------|-0-----|-------|-0-----------|
A|-------|-------|-0-----|-------------|
E|-3-----|-------|-------|-------------|

    G          D           A7          D
e|----3-----|----2--2—2--|----0-----|
B|----0-----|----3--3—3--|----2-----|
G|----0-----|----2--2—2--|----0-----|
D|----------|-0----------|----------|
A|----------|------------|-0--------|
E|-3--------|------------|----------|

    D         D7
Por correr el hombre
     G
No puede pensar,
      D         Em
Que ni él mismo sabe
  A7       Dsus
Para donde va.

    Dsus     D
e|----3-----2-----2-----|
B|------3-----3-----3---|
G|--------2-----2-----2-|
D|-0--------------------|
A|----------------------|
E|----------------------|

   D        D7
Siga siendo niño,
      G
Y en paz dormirá,
     D
Sin guerras,
   Em       A7       D
Ni máquinas de calcular.

   D    D7
 Vuele bajo,
  G              D
 Porque abajo,
   A7       D
 Está la verdad.

    A7
 e|----0--0--|
 B|----2--2--|
 G|----0--0--|
 D|----------|
 A|-0--------|
 E|----------|

 D       D7
 Esto es algo,
  G               D
 Que los hombres,
       A7       D
 No aprenden jamás     : Repite 3 veces

Dialogo
 G  D  A7  D

… Lo poco que deseo lo deseo poco
    Dsus     D             Dsus     D
e|----3-----2-----2-----|----3-----2-----2-----|
B|------3-----3-----3---|------3-----3-----3---|
G|--------2-----2-----2-|--------2-----2-----2-|
D|-0--------------------|-0--------------------|
A|----------------------|----------------------|
E|----------------------|----------------------|

G  D  A7  D

… Qué donde haya odio yo lleve amor
    Dsus     D             Dsus     D
e|----3-----2-----2-----|----3-----2-----2-----|
B|------3-----3-----3---|------3-----3-----3---|
G|--------2-----2-----2-|--------2-----2-----2-|
D|-0--------------------|-0--------------------|
A|----------------------|----------------------|
E|----------------------|----------------------|

        D           D7
Dios quiera que el hombre,
    G
Pudiera volver,
   D           Em
A ser niño un día
  A7         Dsus
Para comprender.

    Dsus     D
e|----3-----2-----2-----|
B|------3-----3-----3---|
G|--------2-----2-----2-|
D|-0--------------------|
A|----------------------|
E|----------------------|

       D       D7
Que está equivocado,
     G
Si piensa encontrar,
    D       Em
Con una chequera,
   A7     D
La felicidad.

  D    D7
Vuele bajo,
 G              D
Porque abajo,
   A7       D
Está la verdad.

    A7
e|----0--0--|
B|----2--2--|
G|----0--0--|
D|----------|
A|-0--------|
E|----------|

D       D7
Esto es algo,
 G               D
Que los hombres,
      A7       D
No aprenden jamás

G  D  C  D

Bienaventurados los pobres en espíritu…

                                      *C   G  A7  D*  Acordes Rasgeados
…Aunque los hombre no aprenden jamás
            

* All the chords provided on here are the property of the respective artist, authors and labels, they are intended strictly for educational purposes,read,view and private study. All the contents are extracted from the internet and we are not getting any responsibility for the content.