Waterfall


Transposer


             (Scroll down for chords)

[Intro]

e|---------------------------------------------------------------------------|
B|---------------------------------------------------------------------------|
G|---------------------------------------------------------------------------|
D|----8-8-8-8--88-65-----8-8-8-8--88-65--------------------------------------|
A|---6-6-6-6---66-66----6-6-6-6---66-66--------------------------------------|
E|---------------------------------------------------------------------------|


[Verse]

(or just play chords)

e|---------------------------------------------------------------------------|
B|---------------------------------------------------------------------------|
G|---------------------------------------------------------------------------|
D|----8-8-8-8--88-65-----8-8-8-8--88-65--------------------------------------|
A|---6-6-6-6---66-66----6-6-6-6---66-66--------------------------------------|
E|---------------------------------------------------------------------------|

e|---------------------------------------------------------------------------|
B|---------------------------------------------------------------------------|
G|---------------------------------------------------------------------------|
D|-------------88-65-----8-8-8-8--88-65--------------------------------------|
A|---6-6-6-6---66-66----6-6-6-6---66-66--------------------------------------|
E|--4-4-4-4------------------------------------------------------------------|

e|---------------------------------------------------------------------------|
B|-------------------------------------------8-------------------------------|
G|-------------------------------------------8-------------------------------|
D|----8-8-8-8--88-65-------------------------8-------------------------------|
A|---6-6-6-6---66-66-----8-8-8-8-8-8-8-8-----6-------------------------------|
E|----------------------6-6-6-6-6-6-6-6--------------------------------------|


(Bar chords are best but it isn't necessary)

Eb
This is a calling out for you
Eb
Through the deep Pacific blue
Eb
You're my voice echo the waves
Eb
Pushing soundwaves out to you
Ab
Will this make it to your room
Lit by a candlelight or two

Eb

Eb
And in your sweet December haze
Eb
I have fell for love again
Eb
As the sand trickled into
Eb
A sadly hourglass of truth
Ab
Will it wash out with the days
Will it hold within your grace?

Eb


[Pre-Chorus]

             Bb 
But either way
    Eb
Oh I'll remember you


Eb


[Verse]

Eb
This is a calling out for truth
Eb
Even when the tides are cruel
Eb
I hear your voice, I hear it all
Eb
I hear your currents pushing through
Ab
Will I make it to your room?
Lit by a candlelight or two

Eb


[Verse]

Eb
They said they watched us fall apart
Eb
But couldn't find us
Eb
They said they called it from the start
Eb
But couldn't guide us
Ab
They said they watched us fall apart
But couldn't find us

Eb


[Pre-Chorus]

             Bb 
But either way
   Eb 
Oh I'll remember you


[Chorus]

Eb
Find me at sea
                     Bb 
And tell me why you never loved me
                     Ab 
Cause I gave you my all
                    Bb 
I had to watch you fall

                 Eb
And even in the darkest silence
                  Bb 
I could see and hear your guidance
                    Ab
But now we've lost it all
                    Bb 
I had to watch you fall
Down this waterfall

Eb


[Verse]

Eb
This is a calling out into
Eb
A void of everything we knew
Eb
My voice just softened in your gaze
Eb
A quiet break of one to two
Ab
I sat lost inside your room
Lit by candlelight or two

Eb


[Verse]

Eb
They said they watched us fall apart
Eb
But couldn't find us
Eb
They said they called it from the start
Eb
But couldn't guide us
Ab
They said they watched us fall apart
But couldn't find us

Eb


[Pre-Chorus]

             Bb 
But either way
     Eb
Oh I'll remember you


[Chorus]

Eb
Find me at sea
                    Bb 
And tell me why you never loved me
                     Ab
Cause I gave you my all
                     Bb 
I had to watch you fall

                   Eb
And even in the darkest silence
                  Bb
I could see and year your guidance
                    Ab
But now we lost it all
                    Bb 
I had to watch you fall
Down this waterfall

Eb Ab            Eb    Bb
       -terfall 


[Bridge]

                             Eb
They say they caught us in a daze
Eb
We were away and never thought
Eb
That it would change
             Ab
But now you ruined all the ways
                               Eb
And the waves won't let them find us
                Bb 
They'll never find us


[Chorus]

(Play gently or single strums)

Eb
Find me at sea
                            Bb 
And tell me why you never loved me
                     Ab
Cause I gave you my all
                    Bb 
I had to watch you fall
            

* All the chords provided on here are the property of the respective artist, authors and labels, they are intended strictly for educational purposes,read,view and private study. All the contents are extracted from the internet and we are not getting any responsibility for the content.