Waterfall


Transposer


             [Intro]

e|--------------------------------------------|     e|--------------------------------------------|
B|--------------------------------------------|     B|--------------------------------------------|
G|--------------------------------------------|     G|--------------------------------------------|
D|----8-8-8-8---8-8-6-5-----8-8-8-8--8-8-6-5--| OR  D|----8-8-8-8---8-8-6-5-----8-8-8-8--8-8-6-5--|
A|---6-6-6-6---6-6-6-6----6-6-6-6---6-6-6-6---|     A|---6-6-6-6----6-6-6-6---6-6-6-6----6-6-6-6--|
E|--------------------------------------------|     E|--------------------------------------------|
                                                    *You can do this picking pattern in the verses*

[Verse]
We have two options here. We can choose between the picking or the strumming:

                    D#5                                       G#5                   D#5    
e|------------------------------------------------|----------------------------------------------|
B|------------------------------------------------|----------------------------------------------|
G|------------------------------------------------|----------------------------------------------|
D|----8-8-8-8---8-8-6-5-----8-8-8-8--8-8-6-5------|---------------8-8-6-5----8-8-8-8----8-8-6-5--|
A|---6-6-6-6---6-6-6-6----6-6-6-6---6-6-6-6-------|----6-6-6-6--------------6-6-6-6----6-6-6-6---|
E|------------------------------------------------|---4-4-4-4----4-4-4-4-------------------------|

                                                  OR
                
    D#5                                       G#5                   D#5    
e|------------------------------------------------|----------------------------------------------|
B|------------------------------------------------|----------------------------------------------|
G|------------------------------------------------|----------------------------------------------|
D|----8-8-8-8---8-8-6-5----8-8-8-8--8-8-6-5-------|---------------8-8-6-5----8-8-8-8----8-8-8-8--|
A|---6-6-6-6---6-6-6-6----6-6-6-6---6-6-6-6-------|----6-6-6-6--------------6-6-6-6----6-6-6-6---|
E|------------------------------------------------|---4-4-4-4----4-4-4-4-------------------------|

D#5
This is a calling out for you
D#5
Through the deep Pacific blue
D#5
You're my voice echo the waves
D#5
Pushing soundwaves out to you
G#5
Will this make it to your room

Lit by a candlelight or two

D#5

D#5
And in your sweet December haze
D#5
I have fell for love again
D#5
As the sand trickled into
D#5
A sadly hourglass of truth
G#5
Will it wash out with the days

Will it hold within your grace?

D#5

[Pre-chorus] 
*We have here the same two options we had with the verse*

             A#5          G#5  
e|-----------------------------|
B|-----------------------------|
G|-----------------------------|
D|-----------------------------|
A|----8-8-8-8---8-8-8-8---6----|
E|---6-6-6-6---6-6-6-6----4----|

             A#5
But either way
    G#5
Oh I'll remember you

D#5

[Verse]

D#5
This is a calling out for truth
D#5
Even when the tides are cruel
D#5
I hear your voice, I hear it all
D#5
I hear your currents pushing through
G#5
Will I make it to your room?

Lit by a candlelight or two

D#5

[Verse]

D#5
They said they watched us fall apart
D#5
But couldn't find us
D#5
They said they called it from the start
D#5
But couldn't guide us
G#5
They said they watched us fall apart

But couldn't find us

D#5

[Pre-Chorus]

             A#5
But either way
   G#5
Oh I'll remember you

[Chorus]

D#5
Find me at sea
                     G#5 
And tell me why you never loved me
                     Cm
Cause I gave you my all
                    A#5 
I had to watch you fall

                 D#5
And even in the darkest silence
                  G#5
I could see and hear your guidance
                    Cm
But now we've lost it all
                    A#5
I had to watch you fall

Down this waterfall

D#5

[Verse]

D#5
This is a calling out into
D#5
A void of everything we knew
D#5
My voice just softened in your gaze
D#5
A quiet break of one to two
G#5
I sat lost inside your room

Lit by candlelight or two

D#5

[Verse]

D#5
They said they watched us fall apart
D#5
But couldn't find us
D#5
They said they called it from the start
D#5
But couldn't guide us
G#5
They said they watched us fall apart
But couldn't find us

D#5

[Pre-Chorus]

             A#5 
But either way
     G#5
Oh I'll remember you

[Chorus]

D#5
Find me at sea
                    G#5
And tell me why you never loved me
                     Cm
Cause I gave you my all
                     A#5
I had to watch you fall
                   D#5
And even in the darkest silence
                  G#5
I could see and hear your guidance
                    Cm
But now we lost it all
                    A#5
I had to watch you fall

Down this waterfall

D#5 G#5      Cm  A#5
       -terfall 

[Bridge]

                             D#5
They say they caught us in a daze
                             D#5
We were away and never thought
                                       G#5
But now you ruined all the ways That it would change
                               Cm
And the waves won't let them find us
                A#5
They'll never find us


[Chorus]

D#5
Find me at sea
                            G#5
And tell me why you never loved me
                     Cm
Cause I gave you my all
                    A#5
I had to watch you fall
            

* All the chords provided on here are the property of the respective artist, authors and labels, they are intended strictly for educational purposes,read,view and private study. All the contents are extracted from the internet and we are not getting any responsibility for the content.