Wind Up


Transposer


             -------------------------------------------------------------------------------
                             Wind Up - Witchrider
-------------------------------------------------------------------------------
Tabbed by: lonelybusdriver
E-mail:

Tuning: Standard

Intro:
     D#5        H5     G#5
e|----------------------------------------------------------------------------|
B|----------------------------------------------------------------------------|
G|-8--8-8668-8----------------------------------------------------------------|
D|-8--8-8668-8---9-9---6--6-6-------------------------------------------------|
A|-6--6-6666-6---9-9---6--6-6-------------------------------------------------|
E|---------------7-7---4--4-4-------------------------------------------------|

Verse 1:

    D#5              H5       G#5
The more I take the more I've got
    D#5              H5       G#5
The less I know, the less I'm not
    D#5              H5       G#5
and if you give me a worn out way
    D#5              H5       G#5
       I won't go      I won't go no I won't

    D#5              H5       G#5
The sun may shine in your own sky
    D#5              H5       G#5
I might feel down but I know why
    D#5              H5       G#5
  Don't project your fears on me
    D#5              H5       G#5
       No I'm not you   no 'm not you

Chorus:

e|------------------------------------------------------|
B|------------------------------------------------------|
G|-8--8------6-8-8~-------------------------------------|  2x
D|-8--8--6-8---------9-9---6--6-6-----------------------|
A|-6--6--------------9-9---6--6-6-----------------------|
E|-------------------7-7---4--4-4-----------------------|

e|-------------------------------------------------------------------|
B|-----------6-7-6~---------------------------6-7-7~-----------------|
G|-8--8--6-8------------------------8--8--6-8------------------------|
D|-8--8--------------9-9---6--6-6---8--8--------------9-9---6--6-6---|
A|-6--6--------------9-9---6--6-6---6--6--------------9-9---6--6-6---|
E|-------------------7-7---4--4-4---------------------7-7---4--4-4---|

Verse 2:

    D#5               H5        G#5
    Feel me, hear me, what I    say
    D#5               H5        G#5     
    Everyone    has   their own way
    D#5               H5        G#5
The way  you  live is how  you  die
    D#5               H5        G#5
       Should be proud

Bridge:
       H5              G#5
And I feel wound up today
       F#5                     D#5
Found myself in the same old game
             H5                  G#5
but there's more than you would know
         F#5            D#5
Wind me up and let me go

Chorus

Solo

      D#5            H5     G#5
Those morons made me like I am
   D#5               H5     G#5
I wish hat they could...        understaaaand

2x Intro/Verse but heavily distorted
2x Chorus
2x Intro while Outro Solo
2x Chorus
            

* All the chords provided on here are the property of the respective artist, authors and labels, they are intended strictly for educational purposes,read,view and private study. All the contents are extracted from the internet and we are not getting any responsibility for the content.