Working Together


Transposer


             The D chord throughout the verse is just a transition between the G and C chords, so it can be optional

[Intro rhythm - Open strumming]
D G C C (x4)


[Intro lead]

e|------------------------------|
B|-12---10------------10---12---|
G|-----------12--12-------------| x11
D|------------------------------|
A|------------------------------|
E|------------------------------|  

e|------------------------------|
B|-12---10----------------------|
G|-----------12--12---11---9----|
D|------------------------------|
A|------------------------------|
E|------------------------------|


[Verse 1] 
G            D    C                  D     G
Honey I'll do the dishes, if you sweep the floor
G            D    C                   D    G
Baby I'll feed the fishes, if you shut the door
G            D    C                    D     G
Honey I'll grant your wishes, if you mow the yard
G          D          C  
Working together is easy


[Chorus]
                        D   G   C   C
But living together is hard
                         D   G   C   C
Living together's so hard


[Verse 2]
G            D      C                             D     G
Baby I'll get you going, if you tell me which way's gotta go
G            D      C                           D    G  
I'll raise the sail, if you tell me which the way the wind blows
G             D     C             D    G
Honey I'll get us home, using only the stars
G          D         C
Working together is easy


[Chorus]
                          D   G   C   C
But living together is hard
                      D   G   C   C
Living together is hard


[Solo 1] 01:51

e|------------------------------------15---14---12-----------------------------------------------------------|
B|--------12p10--12-------------------x--------------15---15--12---15b17---12h15p12-----------------12h13--12|
G|-14------------------12h14----------x----------------------------------------------14---12--------12h14--12|
D|-----------------------------14--------------------------------------------------------------14------------|
A|-----------------------------------------------------------------------------------------------------------|
E|-----------------------------------------------------------------------------------------------------------|


[Verse 3]
G              D    C                D    G
Maybe I'll run for miles, just to make it new
G              D    C                D    G
Maybe I'll say I'm sorry, if you say it too
G              D    C                    D   G
Maybe I'll keep on drinking, if you drive the car
G          D        C
Working together is easy
G          D        C
Working together is easy


[Chorus]
                            D  G  C  C
But living together's so hard
                       D  G  C  C
Living together is hard


[Solo 2] 02:51

e|-------------------------------12p10h12-----15---14---12---------------------------------------------------|
B|---------------------15---12----------------x--------------15---15--12---15b17---12h15p12------------------|
G|-14---12---14---12--------------------------x----------------------------------------------14---12---------|
D|-----------------------------------------------------------------------------------------------------14----|
A|-----------------------------------------------------------------------------------------------------------|
E|-----------------------------------------------------------------------------------------------------------|

e|--------------------------------------------15--15--12--12------15--15--12--12-----------------------------|
B|-12h15p12-------------------15--15/17--12---15--15--12--12------15--15--12--12--15--15--12--12-------------|
G|-----------14---12----------14--14/16--12---------------------------------------14--14--12--12-------------|
D|---------------------14------------------------------------------------------------------------------------|
A|-----------------------------------------------------------------------------------------------------------|
E|-----------------------------------------------------------------------------------------------------------|

e|-----------------15--15--12--12------15--15--12--12-----------------------------|
B|-15--15/17--12---15--15--12--12------15--15--12--12--15--15--12--12-------------|
G|-14--14/16--12---------------------------------------14--14--12--12-------------|
D|--------------------------------------------------------------------------------|
A|--------------------------------------------------------------------------------|
E|--------------------------------------------------------------------------------|


************************************

| x   Dead note
| h   Hammer-on
| p   Pull-off
| b   Bend
| /   Slide up

************************************
            

* All the chords provided on here are the property of the respective artist, authors and labels, they are intended strictly for educational purposes,read,view and private study. All the contents are extracted from the internet and we are not getting any responsibility for the content.